Loading


Cours populaires

Une selection de backtrack rock, blues, jazz, funk...

Cours apprendre à jouer le solo d'Hotel California...

Les accords de base pour débutant, les plus joués en photo...

Apprendre facilement l'emplacement des notes sur le manche de sa guitare...


Irma - I Know




Irma - I know 

Accords :

Em :022000
B : x24442
C : x32010
G : 320033
Esus2 : x79977
Dsus2 : x57755
Csus2 : x35533

Capo 2ème case :


Intro + Couplet :

e|--0---0---2---2---3---3---5---5------
B|----0---0---0---0---0---0---5---0----
G|-------------------------------------
D|--2-------1-------0------------------
A|--------------------------4----------
E|-------------------------------------

e|-------------------------------------
B|--1-----0h1^0-----1^0--4-----4--5----
G|------0---------0----------4---------
D|----2---------2----------4-----------
A|--0--------------------2-------------
E|-------------------------------------


Couplet :

i'd like to tell you just a word
I am so sorry to disturb
You may be thhinking I'm a fool 
I heard you tell you don't care
I heard you think it loud and clear
It doesn't make me proud of you


I know you time is precious
But give me just a second
I need to straighten things out with you
You blew my hopes and dreams away
And there is not a single day
I don't fear the worst because of you

Refrain : 

Em    B       C        B
I know that it's not a dream 
Em    B       C        B
I saw, yeah I saw your scheme 
Em   B   C
I know you
G C B
I know 

Couplet

I wonder if there's a justice
When I look right into your eyes
Those feeling never lie 
My only weapon is this song 
And you won't have to sing along
This is the story of my life

I know that it's not a dream 
I saw, yeah I saw your scheme 
I know you
I know

Pont : 

Esus2  Dsus2  Csus2  Dsus2 ( Faire 4 fois )
I know 

Refrain :

I know that it's not a dream 
I saw, yeah I saw your scheme 
I know you
I know

Nous vous suggérons aussi ces tablatures :


TitreArtiste Hits Type
Letter To The LordIrma 10042