Loading


Cours populaires

Une selection de backtrack rock, blues, jazz, funk...

Cours apprendre à jouer le solo d'Hotel California...

Les accords de base pour débutant, les plus joués en photo...

Apprendre facilement l'emplacement des notes sur le manche de sa guitare...


Comment lire une tablature


Dans ce cours nous allons vous expliquer comment lire une tablature, que ce soit une tablature au format txt ou Guitar Pro, la méthode est la même.
L’avantage d’une tablature est qu’il n’est pas nécessaire de connaitre le solfège pour la lire, ce cours est basé sur une série d’exemples pratiques.
Avant de commencer un petit rappel sur les correspondances de note française et anglo-saxonne : C correspond à la note de Do, D au Ré, E au Mi, F au Fa, G au Sol, A au La et B au Si.

e-|-------------------------------------|
B-|-------------------------------------|
G-|-------------------------------------|
D-|-------------------------------------|
A-|-------------------------------------|
E-|-------------------------------------| 
Au dessus nous avons représenté une tablature vierge, E, A, D, G B, e correspond aux noms des notes des cordes à vide de votre guitare (celui de votre accordage). Notez que la grosse corde de Mi et noté E et que la petite corde de Mi est noté e.

Exemples pratiques
e-|-------------------------------------|
B-|-------------------------------------|
G-|-------------------------------------|
D-|-----------3-------------------------|
A-|--------2----------------------------|
E-|--1--3-------------------------------| 
Ici les notes sont jouer les unes à la suite des autres : corde de Mi case 1 puis case 3, ensuite corde de La case 2 et cordé de Ré case 3.
e-|-------------------------------------|
B-|-------------------------------------|
G-|-------------------------------------|
D-|--3--5-------------------------------|
A-|--3--5-------------------------------|
E-|--1--3-------------------------------| 
Dans ce cas il faut jouer des accords de puissance : accord de Fa, accords de Sol.
Pour l’accord de Fa
  • Index sur la case 1 de la corde de Mi
  • Majeur sur la case 3 de la corde de La
  • L’annulaire sur la case 3 de la corde de Ré

Pour l’accord de Sol

  • Index sur la case 3 de la corde de Mi
  • Majeur sur la case 5 de la corde de La
  • L’annulaire sur la case 5 de la corde de Ré

Différents symboles qu’on peut trouver dans une tablature
/ ou \ ou sl : un slide
p : un pull up
h : un hammer
b : un bend
pm : en palm mute
x : pour les dead notes
~~ ou /\/\ ou ^^ : pour le vibrato

Par exemple:
 
e-|-------------------------------------|
B-|-------------------------------------|
G-|-------------------------------------|
D-|-------------------------------------|
A-|-----7h9p7---------------------------|
E-|-------------------------------------| 
                 
Dans ce cas on fait sonner la case 7 de la corde de La (avec l’index) puis on fait un hammer avec son annulaire sur la case 9 pour finir avec un pull off de la case 9 à la case 7.
Ce cours est fini, j’espère qu’il vous aura aidé.